Форма входа

Приветствую Вас Гость!

Мини-чат

Наш опрос

Оцените мой сайт
Всего ответов: 35

Статистика

$COUNTERdiv>
Zik Inc.

Сплин - Форум

[ Новые сообщения · Участники · Правила форума · Поиск · RSS ]
Страница 1 из 11
Форум » Развлечения » Музыка » Сплин (...Всегда один...)
Сплин
ZikДата: Четверг, 15.11.2007, 18:11 | Сообщение # 1
Падший Ангел
Группа: Администраторы
Сообщений: 65
Репутация: 1
Статус: Offline
Прекрасный исполнитель, и гитарист cool
Наверное второй после Цоя...
Вот песня и аккорды к ней:
-----------------------------------------------
Бог устал нас любить
D7/F#
---
-1-
-2-
-0-
---
-2-

Intro: Am D7/F# G6

Am D7/F# G6
Мы чересчур увеличили дозу
Вспомнили все что хотели забыть
Или на рельсы легли слишком поздно
G6 Am
Бог устал нас любить
D7/F# G6
Бог устал нас любить
Am
Бог просто устал нас любить
D7/F# G6
Бог просто устал

Вот она, гильза от пули навылет
Карта, которую нечем покрыть
Мы остаемся одни в этом мире
Бог устал нас любить
Бог устал нас любить
Бог просто устал нас любить
Бог просто устал

Я рассказал бы тебе все что знаю
Только об этом нельзя говорить
Выпавший снег никогда не растает
Бог устал нас любить
Бог устал нас любить
Бог просто устал нас любить
Бог просто устал

----------------------------------------------------
-------1-----------1------------0------0-----3--1-0-
-----2---2-------2---2- -------0---0------0----------
---2-------2---0-------0----0-------0------0--------
-0--------------------------------------------------
- -------------2-----------3-------------------------

-----------------------------------------------


Зика не убить!
 
Форум » Развлечения » Музыка » Сплин (...Всегда один...)
Страница 1 из 11
Поиск: